0
SECTION
2
HEADER
9
$INSUNITS
70
1
9
$ACADVER
1
AC1014
9
$HANDSEED
5
FFFF
0
ENDSEC
0
SECTION
2
TABLES
0
TABLE
2
VPORT
5
8
100
AcDbSymbolTable
0
ENDTAB
0
TABLE
2
LTYPE
5
5
100
AcDbSymbolTable
0
LTYPE
5
14
100
AcDbSymbolTableRecord
100
AcDbLinetypeTableRecord
2
BYBLOCK
70
0
0
LTYPE
5
15
100
AcDbSymbolTableRecord
100
AcDbLinetypeTableRecord
2
BYLAYER
70
0
0
ENDTAB
0
TABLE
2
LAYER
5
2
100
AcDbSymbolTable
70
2
0
LAYER
5
50
100
AcDbSymbolTableRecord
100
AcDbLayerTableRecord
2
0
70
0
6
CONTINUOUS
0
ENDTAB
0
TABLE
2
STYLE
5
3
100
AcDbSymbolTable
70
1
0
STYLE
5
11
100
AcDbSymbolTableRecord
100
AcDbTextStyleTableRecord
2
STANDARD
70
0
0
ENDTAB
0
TABLE
2
VIEW
5
6
100
AcDbSymbolTable
70
0
0
ENDTAB
0
TABLE
2
UCS
5
7
100
AcDbSymbolTable
70
0
0
ENDTAB
0
TABLE
2
APPID
5
9
100
AcDbSymbolTable
70
2
0
APPID
5
12
100
AcDbSymbolTableRecord
100
AcDbRegAppTableRecord
2
ACAD
70
0
0
ENDTAB
0
TABLE
2
DIMSTYLE
5
A
100
AcDbSymbolTable
70
1
0
ENDTAB
0
TABLE
2
BLOCK_RECORD
5
1
100
AcDbSymbolTable
70
1
0
BLOCK_RECORD
5
1F
100
AcDbSymbolTableRecord
100
AcDbBlockTableRecord
2
*MODEL_SPACE
0
BLOCK_RECORD
5
1B
100
AcDbSymbolTableRecord
100
AcDbBlockTableRecord
2
*PAPER_SPACE
0
ENDTAB
0
ENDSEC
0
SECTION
2
BLOCKS
0
BLOCK
5
20
100
AcDbEntity
100
AcDbBlockBegin
2
*MODEL_SPACE
0
ENDBLK
5
21
100
AcDbEntity
100
AcDbBlockEnd
0
BLOCK
5
1C
100
AcDbEntity
100
AcDbBlockBegin
2
*PAPER_SPACE
0
ENDBLK
5
1D
100
AcDbEntity
100
AcDbBlockEnd
0
ENDSEC
0
SECTION
2
ENTITIES
0
LINE
5
100
100
AcDbEntity
8
0
100
AcDbLine
10
-0.52097596572962757
20
1.9683417412986948
30
0
11
1.157345380715598
21
1.7424489727511758
31
0
0
ARC
5
101
100
AcDbEntity
8
0
100
AcDbCircle
10
1.0937510955034426
20
1.2699608666919766
30
0
40
0.47674861665143264
210
0
220
-0
230
1
100
AcDbArc
50
28.163014883327786
51
82.334372851635322
0
ARC
5
102
100
AcDbEntity
8
0
100
AcDbCircle
10
4.8093127217938081
20
2.6861965010018127
30
0
40
3.5039570948662959
210
0
220
0
230
1
100
AcDbArc
50
199.87467566755294
51
221.60637903602611
0
ARC
5
103
100
AcDbEntity
8
0
100
AcDbCircle
10
3.3382352324411655
20
1.8744682812653859
30
0
40
2.0145291987965712
210
0
220
0
230
1
100
AcDbArc
50
196.22607456402409
51
232.25957253193789
0
ARC
5
104
100
AcDbEntity
8
0
100
AcDbCircle
10
2.1427475123363351
20
0.32530922809194496
30
0
40
0.057796135377039849
210
0
220
0
230
1
100
AcDbArc
50
-130.55234863737073
51
36.312946175530712
0
LINE
5
105
100
AcDbEntity
8
0
100
AcDbLine
10
-0.52097596572962757
20
1.9683417412986948
30
0
11
-0.8860610112717936
21
1.7509932845520551
31
0
0
LINE
5
106
100
AcDbEntity
8
0
100
AcDbLine
10
-0.8860610112717936
20
1.7509932845520551
30
0
11
-1.0526407826996504
21
0.94960951930452742
31
0
0
ARC
5
107
100
AcDbEntity
8
0
100
AcDbCircle
10
-0.93486912186337046
20
0.92512889317563796
30
0
40
0.12028908991175494
210
0
220
0
230
1
100
AcDbArc
50
168.25742153496057
51
340.14265648964897
0
SPLINE
5
108
100
AcDbEntity
8
0
100
AcDbSpline
70
4
71
5
72
66
73
60
74
0
42
0.000000001
43
0.0000000001
44
0.0000000001
40
0
40
0
40
0
40
0
40
0
40
0
40
0.018181818181818181
40
0.036363636363636362
40
0.054545454545454543
40
0.072727272727272724
40
0.090909090909090912
40
0.1090909090909091
40
0.12727272727272729
40
0.14545454545454548
40
0.16363636363636366
40
0.18181818181818185
40
0.20000000000000004
40
0.21818181818181823
40
0.23636363636363641
40
0.25454545454545457
40
0.27272727272727276
40
0.29090909090909095
40
0.30909090909090914
40
0.32727272727272733
40
0.34545454545454551
40
0.3636363636363637
40
0.38181818181818189
40
0.40000000000000008
40
0.41818181818181827
40
0.43636363636363645
40
0.45454545454545464
40
0.47272727272727283
40
0.49090909090909102
40
0.50909090909090915
40
0.52727272727272734
40
0.54545454545454553
40
0.56363636363636371
40
0.5818181818181819
40
0.60000000000000009
40
0.61818181818181828
40
0.63636363636363646
40
0.65454545454545465
40
0.67272727272727284
40
0.69090909090909103
40
0.70909090909090922
40
0.7272727272727274
40
0.74545454545454559
40
0.76363636363636378
40
0.78181818181818197
40
0.80000000000000016
40
0.81818181818181834
40
0.83636363636363653
40
0.85454545454545472
40
0.87272727272727291
40
0.89090909090909109
40
0.90909090909090928
40
0.92727272727272747
40
0.94545454545454566
40
0.96363636363636385
40
0.98181818181818203
40
1
40
1
40
1
40
1
40
1
40
1
41
1
41
1
41
1
41
1
41
1
41
1
41
1
41
1
41
1
41
1
41
1
41
1
41
1
41
1
41
1
41
1
41
1
41
1
41
1
41
1
41
1
41
1
41
1
41
1
41
1
41
1
41
1
41
1
41
1
41
1
41
1
41
1
41
1
41
1
41
1
41
1
41
1
41
1
41
1
41
1
41
1
41
1
41
1
41
1
41
1
41
1
41
1
41
1
41
1
41
1
41
1
41
1
41
1
41
1
41
1
41
1
41
1
41
1
41
1
41
1
10
-0.82173226754716588
20
0.88426916548158407
30
0
10
-0.81880036325746697
20
0.89345544794860254
30
0
10
-0.81247198811482357
20
0.91160933688996326
30
0
10
-0.80158571556790159
20
0.93818414475109657
30
0
10
-0.78428185310260845
20
0.97230444364939006
30
0
10
-0.7580652329913814
20
1.0127432788448627
30
0
10
-0.72746242715790499
20
1.0509065212992805
30
0
10
-0.69288346337476114
20
1.0866720029102275
30
0
10
-0.65502899451786989
20
1.1198392137984134
30
0
10
-0.61494275744113325
20
1.150115873495291
30
0
10
-0.57373046481649992
20
1.1771822042099795
30
0
10
-0.53229468835186378
20
1.2007518447368815
30
0
10
-0.49107695099805343
20
1.2206303024537788
30
0
10
-0.44976438647428379
20
1.2367835988395908
30
0
10
-0.40710116538482122
20
1.2493772784131414
30
0
10
-0.36148700478011592
20
1.2585990773217026
30
0
10
-0.31151676267989137
20
1.2644947312341266
30
0
10
-0.25650618875920267
20
1.266814696052069
30
0
10
-0.19711110122266357
20
1.2648177927432747
30
0
10
-0.1356390423679395
20
1.2572115669171975
30
0
10
-0.075337354974147466
20
1.2425484615597928
30
0
10
-0.019869108024241831
20
1.2195349697441904
30
0
10
0.027308604091539814
20
1.1873948498477782
30
0
10
0.063467659231734586
20
1.14616555887744
30
0
10
0.087315878079919196
20
1.0971350371676938
30
0
10
0.099109370646530692
20
1.0428143262046639
30
0
10
0.10002970701336404
20
0.98633201805505222
30
0
10
0.091741198055865766
20
0.93097154072974286
30
0
10
0.075893510410420181
20
0.87966163916253848
30
0
10
0.053608598271751386
20
0.83446179090355788
30
0
10
0.025087649614608312
20
0.79611980457226295
30
0
10
-0.0097229389742004482
20
0.76433499927969939
30
0
10
-0.050536757881468337
20
0.73795099671367426
30
0
10
-0.096161461092431816
20
0.71517820943412391
30
0
10
-0.1437854898463341
20
0.69379072953049925
30
0
10
-0.1887353184539434
20
0.67136672408298093
30
0
10
-0.22578953916693534
20
0.64563570110945634
30
0
10
-0.25029853270545821
20
0.61483105080421596
30
0
10
-0.25924877258301793
20
0.57799519265578692
30
0
10
-0.25268315891256948
20
0.53542156127505003
30
0
10
-0.23333274274831886
20
0.4884676693608761
30
0
10
-0.20531744229879997
20
0.43904663899842516
30
0
10
-0.17309297466829501
20
0.38920220200658728
30
0
10
-0.14040405474547221
20
0.34068990189351622
30
0
10
-0.10896760463911265
20
0.29445498922365654
30
0
10
-0.078514344467534233
20
0.25062223937039996
30
0
10
-0.047694012912499695
20
0.20881076031135423
30
0
10
-0.014722693232792039
20
0.16835098642301505
30
0
10
0.021879962323406058
20
0.12853677338564998
30
0
10
0.062555515107413168
20
0.088872827046259664
30
0
10
0.10607411807644475
20
0.049293493052822365
30
0
10
0.15010428746231502
20
0.010029594754562684
30
0
10
0.19166879340718201
20
-0.028492055776194306
30
0
10
0.22766207507274563
20
-0.065765225266758154
30
0
10
0.25529602951861113
20
-0.10130451674627897
30
0
10
0.27268757332775362
20
-0.13477535449298833
30
0
10
0.27770171661882637
20
-0.159773214816226
30
0
10
0.27632283301823524
20
-0.17749742075723851
30
0
10
0.27312143646395598
20
-0.18885878182840898
30
0
10
0.27095015407099432
20
-0.19442575827037359
30
0
0
LINE
5
109
100
AcDbEntity
8
0
100
AcDbLine
10
0.27095015407099432
20
-0.19442575827037359
30
0
11
0.0022930930273147212
21
-0.73199379878818571
31
0
0
ARC
5
110
100
AcDbEntity
8
0
100
AcDbCircle
10
0.82823023597531431
20
0.70055713644754658
30
0
40
1.7907125858246449
210
0
220
0
230
1
100
AcDbArc
50
211.21605780882635
51
235.73835364360531
0
ARC
5
111
100
AcDbEntity
8
0
100
AcDbCircle
10
-0.10952086684066431
20
-0.67611322632691684
30
0
40
0.12500000000015371
210
0
220
0
230
1
100
AcDbArc
50
235.73835364360531
51
333.44577523255703
0
ARC
5
112
100
AcDbEntity
8
0
100
AcDbCircle
10
0.68492883218377276
20
-1.1351480369436462
30
0
40
1.7017280475545644
210
0
220
0
230
1
100
AcDbArc
50
147.74869953004108
51
191.36771936861237
0
ARC
5
113
100
AcDbEntity
8
0
100
AcDbCircle
10
-0.72887784011285517
20
-0.24305759402312443
30
0
40
0.02999999999999263
210
0
220
-0
230
1
100
AcDbArc
50
31.216057808826054
51
147.74869953004097
0
LINE
5
114
100
AcDbEntity
8
0
100
AcDbLine
10
0.7897927764103444
20
-0.98301516033543068
30
0
11
-0.91970496446775629
21
-1.5085048815871263
31
0
0
ARC
5
115
100
AcDbEntity
8
0
100
AcDbCircle
10
-0.93439624191582971
20
-1.4607119284776298
30
0
40
0.050000000000005207
210
0
220
0
230
1
100
AcDbArc
50
191.36771936861214
51
287.08712550898053
0
LINE
5
116
100
AcDbEntity
8
0
100
AcDbLine
10
1.1349185118044394
20
-0.20603582739018492
30
0
11
1.6623124939062957
21
-0.20603582739018483
31
0
0
LINE
5
117
100
AcDbEntity
8
0
100
AcDbLine
10
1.712303391445279
20
-0.25508180262799063
30
0
11
1.7329626991970326
21
-1.3376295288199123
31
0
0
LINE
5
118
100
AcDbEntity
8
0
100
AcDbLine
10
1.3531594462863115
20
-1.444895890738243
30
0
11
1.634888953643455
21
-1.4395193734222669
31
0
0
ARC
5
119
100
AcDbEntity
8
0
100
AcDbCircle
10
0.91823725459761807
20
-1.4008645233379806
30
0
40
0.43714536957222078
210
0
220
0
230
1
100
AcDbArc
50
-5.7809075507235219
51
107.08712550847443
0
ARC
5
120
100
AcDbEntity
8
0
100
AcDbCircle
10
1.6329809041190664
20
-1.3395375783443007
30
0
40
0.099999999999999797
210
0
220
0
230
1
100
AcDbArc
50
-88.906701806006069
51
1.0932981939938775
0
ARC
5
121
100
AcDbEntity
8
0
100
AcDbCircle
10
1.6623124939062952
20
-0.25603582739018527
30
0
40
0.050000000000000433
210
0
220
-0
230
1
100
AcDbArc
50
1.093298193994211
51
89.999999999999503
0
LINE
5
122
100
AcDbEntity
8
0
100
AcDbLine
10
1.2674395340516955
20
1.1858290964529563
30
0
11
0.90299198987340978
21
0.12583460521545892
31
0
0
ARC
5
123
100
AcDbEntity
8
0
100
AcDbCircle
10
1.1398612770300192
20
0.044394153676220252
30
0
40
0.25047875427867189
210
0
220
0
230
1
100
AcDbArc
50
161.02599388846522
51
268.86929344433105
0
ARC
5
124
100
AcDbEntity
8
0
100
AcDbCircle
10
1.0393663442327779
20
1.2674603231245167
30
0
40
0.24224169146139934
210
0
220
0
230
1
100
AcDbArc
50
-19.693141912122599
51
79.917110624169666
0
ARC
5
125
100
AcDbEntity
8
0
100
AcDbCircle
10
1.0393663442327776
20
1.2674603231245165
30
0
40
0.36724169146139968
210
0
220
-0
230
1
100
AcDbArc
50
6.8957014138309098
51
79.433575564207828
0
ARC
5
126
100
AcDbEntity
8
0
100
AcDbCircle
10
1.090952358328477
20
1.5678873542371441
30
0
40
0.062602792358690984
210
0
220
-0
230
1
100
AcDbArc
50
75.421939734894565
51
261.57141237851476
0
CIRCLE
5
127
100
AcDbEntity
8
0
100
AcDbCircle
10
1.0393663442327779
20
1.2674603231245167
30
0
40
0.155
210
0
220
0
230
1
0
ENDSEC
0
SECTION
2
OBJECTS
0
DICTIONARY
5
C
100
AcDbDictionary
3
ACAD_GROUP
350
D
3
ACAD_MLINESTYLE
350
17
0
DICTIONARY
5
D
100
AcDbDictionary
0
DICTIONARY
5
1A
330
C
100
AcDbDictionary
0
DICTIONARY
5
17
100
AcDbDictionary
0
ENDSEC
0
EOF
